0
SECTION
2
HEADER
9
$INSUNITS
70
4
9
$ACADVER
1
AC1014
9
$HANDSEED
5
FFFF
0
ENDSEC
0
SECTION
2
TABLES
0
TABLE
2
VPORT
5
8
100
AcDbSymbolTable
0
ENDTAB
0
TABLE
2
LTYPE
5
5
100
AcDbSymbolTable
0
LTYPE
5
14
100
AcDbSymbolTableRecord
100
AcDbLinetypeTableRecord
2
BYBLOCK
70
0
0
LTYPE
5
15
100
AcDbSymbolTableRecord
100
AcDbLinetypeTableRecord
2
BYLAYER
70
0
0
ENDTAB
0
TABLE
2
LAYER
5
2
100
AcDbSymbolTable
70
2
0
LAYER
5
50
100
AcDbSymbolTableRecord
100
AcDbLayerTableRecord
2
0
70
0
6
CONTINUOUS
0
ENDTAB
0
TABLE
2
STYLE
5
3
100
AcDbSymbolTable
70
1
0
STYLE
5
11
100
AcDbSymbolTableRecord
100
AcDbTextStyleTableRecord
2
STANDARD
70
0
0
ENDTAB
0
TABLE
2
VIEW
5
6
100
AcDbSymbolTable
70
0
0
ENDTAB
0
TABLE
2
UCS
5
7
100
AcDbSymbolTable
70
0
0
ENDTAB
0
TABLE
2
APPID
5
9
100
AcDbSymbolTable
70
2
0
APPID
5
12
100
AcDbSymbolTableRecord
100
AcDbRegAppTableRecord
2
ACAD
70
0
0
ENDTAB
0
TABLE
2
DIMSTYLE
5
A
100
AcDbSymbolTable
70
1
0
ENDTAB
0
TABLE
2
BLOCK_RECORD
5
1
100
AcDbSymbolTable
70
1
0
BLOCK_RECORD
5
1F
100
AcDbSymbolTableRecord
100
AcDbBlockTableRecord
2
*MODEL_SPACE
0
BLOCK_RECORD
5
1B
100
AcDbSymbolTableRecord
100
AcDbBlockTableRecord
2
*PAPER_SPACE
0
ENDTAB
0
ENDSEC
0
SECTION
2
BLOCKS
0
BLOCK
5
20
100
AcDbEntity
100
AcDbBlockBegin
2
*MODEL_SPACE
0
ENDBLK
5
21
100
AcDbEntity
100
AcDbBlockEnd
0
BLOCK
5
1C
100
AcDbEntity
100
AcDbBlockBegin
2
*PAPER_SPACE
0
ENDBLK
5
1D
100
AcDbEntity
100
AcDbBlockEnd
0
ENDSEC
0
SECTION
2
ENTITIES
0
LINE
5
100
100
AcDbEntity
8
0
100
AcDbLine
10
107.15000000000001
20
-170
30
0
11
-107.15000000000001
21
-170
31
0
0
LINE
5
101
100
AcDbEntity
8
0
100
AcDbLine
10
-107.15000000000001
20
-170
30
0
11
-107.15000000000001
21
170
31
0
0
LINE
5
102
100
AcDbEntity
8
0
100
AcDbLine
10
-107.15000000000001
20
170
30
0
11
107.15000000000001
21
170
31
0
0
LINE
5
103
100
AcDbEntity
8
0
100
AcDbLine
10
107.15000000000001
20
170
30
0
11
107.15000000000001
21
-170
31
0
0
LINE
5
104
100
AcDbEntity
8
0
100
AcDbLine
10
107.15000000000001
20
-170
30
0
11
-107.15000000000001
21
170
31
0
0
LINE
5
105
100
AcDbEntity
8
0
100
AcDbLine
10
-107.15000000000001
20
-170
30
0
11
107.15000000000001
21
170
31
0
0
LINE
5
106
100
AcDbEntity
8
0
100
AcDbLine
10
101.14999999999998
20
4.9999999999999689
30
0
11
104.14999999999999
21
4.9999999999999689
31
0
0
LINE
5
107
100
AcDbEntity
8
0
100
AcDbLine
10
104.14999999999999
20
4.9999999999999689
30
0
11
104.14999999999999
21
-5.0000000000000311
31
0
0
LINE
5
108
100
AcDbEntity
8
0
100
AcDbLine
10
104.14999999999999
20
-5.0000000000000311
30
0
11
101.14999999999998
21
-5.0000000000000311
31
0
0
LINE
5
109
100
AcDbEntity
8
0
100
AcDbLine
10
101.14999999999998
20
-5.0000000000000311
30
0
11
101.14999999999998
21
4.9999999999999689
31
0
0
LINE
5
110
100
AcDbEntity
8
0
100
AcDbLine
10
101.14999999999998
20
4.9999999999999689
30
0
11
104.14999999999999
21
-5.0000000000000311
31
0
0
LINE
5
111
100
AcDbEntity
8
0
100
AcDbLine
10
104.14999999999999
20
4.9999999999999689
30
0
11
101.14999999999998
21
-5.0000000000000311
31
0
0
LWPOLYLINE
5
112
100
AcDbEntity
8
0
100
AcDbPolyline
90
4
70
1
43
0.0
10
101.14999999999998
20
-145.00000000000003
10
101.14999999999998
20
-155.00000000000003
10
104.14999999999999
20
-155.00000000000003
10
104.14999999999999
20
-145.00000000000003
0
LWPOLYLINE
5
113
100
AcDbEntity
8
0
100
AcDbPolyline
90
4
70
1
43
0.0
10
101.14999999999998
20
-115.00000000000003
10
101.14999999999998
20
-125.00000000000001
10
104.14999999999999
20
-125.00000000000001
10
104.14999999999999
20
-115.00000000000003
0
LWPOLYLINE
5
114
100
AcDbEntity
8
0
100
AcDbPolyline
90
4
70
1
43
0.0
10
101.14999999999998
20
-85.000000000000028
10
101.14999999999998
20
-95.000000000000014
10
104.14999999999999
20
-95.000000000000014
10
104.14999999999999
20
-85.000000000000028
0
LWPOLYLINE
5
115
100
AcDbEntity
8
0
100
AcDbPolyline
90
4
70
1
43
0.0
10
101.14999999999998
20
-55.000000000000028
10
101.14999999999998
20
-65.000000000000028
10
104.14999999999999
20
-65.000000000000028
10
104.14999999999999
20
-55.000000000000028
0
LWPOLYLINE
5
116
100
AcDbEntity
8
0
100
AcDbPolyline
90
4
70
1
43
0.0
10
101.14999999999998
20
-25.000000000000032
10
101.14999999999998
20
-35.000000000000028
10
104.14999999999999
20
-35.000000000000028
10
104.14999999999999
20
-25.000000000000032
0
LWPOLYLINE
5
117
100
AcDbEntity
8
0
100
AcDbPolyline
90
4
70
1
43
0.0
10
101.14999999999998
20
34.999999999999972
10
101.14999999999998
20
24.999999999999968
10
104.14999999999999
20
24.999999999999968
10
104.14999999999999
20
34.999999999999972
0
LWPOLYLINE
5
118
100
AcDbEntity
8
0
100
AcDbPolyline
90
4
70
1
43
0.0
10
-107.15000000000001
20
-170
10
-138.55000000000001
20
-170
10
-138.55000000000001
20
170
10
-107.15000000000001
20
170
0
LINE
5
119
100
AcDbEntity
8
0
100
AcDbLine
10
-138.55000000000001
20
170
30
0
11
-352.85000000000002
21
170
31
0
0
LINE
5
120
100
AcDbEntity
8
0
100
AcDbLine
10
-352.85000000000002
20
170
30
0
11
-352.85000000000002
21
-170
31
0
0
LINE
5
121
100
AcDbEntity
8
0
100
AcDbLine
10
-352.85000000000002
20
-170
30
0
11
-138.55000000000001
21
-170
31
0
0
LINE
5
122
100
AcDbEntity
8
0
100
AcDbLine
10
-138.55000000000001
20
-170
30
0
11
-138.55000000000001
21
170
31
0
0
LINE
5
123
100
AcDbEntity
8
0
100
AcDbLine
10
-138.55000000000001
20
170
30
0
11
-352.85000000000002
21
-170
31
0
0
LINE
5
124
100
AcDbEntity
8
0
100
AcDbLine
10
-352.85000000000002
20
170
30
0
11
-138.55000000000001
21
-170
31
0
0
LINE
5
125
100
AcDbEntity
8
0
100
AcDbLine
10
4.9999999999999982
20
164
30
0
11
-4.9999999999999991
21
164
31
0
0
LINE
5
126
100
AcDbEntity
8
0
100
AcDbLine
10
-4.9999999999999991
20
164
30
0
11
-5
21
167
31
0
0
LINE
5
127
100
AcDbEntity
8
0
100
AcDbLine
10
-5
20
167
30
0
11
5
21
167
31
0
0
LINE
5
128
100
AcDbEntity
8
0
100
AcDbLine
10
5
20
167
30
0
11
4.9999999999999982
21
164
31
0
0
LINE
5
129
100
AcDbEntity
8
0
100
AcDbLine
10
4.9999999999999982
20
164
30
0
11
-5
21
167
31
0
0
LINE
5
130
100
AcDbEntity
8
0
100
AcDbLine
10
-4.9999999999999991
20
164
30
0
11
5
21
167
31
0
0
LWPOLYLINE
5
131
100
AcDbEntity
8
0
100
AcDbPolyline
90
4
70
1
43
0.0
10
-85
20
167
10
-95
20
167
10
-95
20
164
10
-85
20
164
0
LWPOLYLINE
5
132
100
AcDbEntity
8
0
100
AcDbPolyline
90
4
70
1
43
0.0
10
-55
20
167
10
-65
20
167
10
-65
20
164
10
-55
20
164
0
LWPOLYLINE
5
133
100
AcDbEntity
8
0
100
AcDbPolyline
90
4
70
1
43
0.0
10
-25
20
167
10
-35
20
167
10
-35
20
164
10
-25
20
164
0
LWPOLYLINE
5
134
100
AcDbEntity
8
0
100
AcDbPolyline
90
4
70
1
43
0.0
10
35
20
167
10
25
20
167
10
25
20
164
10
35
20
164
0
LWPOLYLINE
5
135
100
AcDbEntity
8
0
100
AcDbPolyline
90
4
70
1
43
0.0
10
65
20
167
10
55
20
167
10
55
20
164
10
65
20
164
0
LWPOLYLINE
5
136
100
AcDbEntity
8
0
100
AcDbPolyline
90
4
70
1
43
0.0
10
95
20
167
10
85
20
167
10
85
20
164
10
95
20
164
0
LINE
5
137
100
AcDbEntity
8
0
100
AcDbLine
10
5.0003980766287324
20
-165.49999999999997
30
0
11
-4.9996019233712676
21
-165.49999999999997
31
0
0
LINE
5
138
100
AcDbEntity
8
0
100
AcDbLine
10
-4.9996019233712676
20
-165.49999999999997
30
0
11
-4.9996019233712685
21
-168.49999999999997
31
0
0
LINE
5
139
100
AcDbEntity
8
0
100
AcDbLine
10
-4.9996019233712685
20
-168.49999999999997
30
0
11
5.0003980766287324
21
-168.49999999999997
31
0
0
LINE
5
140
100
AcDbEntity
8
0
100
AcDbLine
10
5.0003980766287324
20
-168.49999999999997
30
0
11
5.0003980766287324
21
-165.49999999999997
31
0
0
LINE
5
141
100
AcDbEntity
8
0
100
AcDbLine
10
5.0003980766287324
20
-165.49999999999997
30
0
11
-4.9996019233712685
21
-168.49999999999997
31
0
0
LINE
5
142
100
AcDbEntity
8
0
100
AcDbLine
10
-4.9996019233712676
20
-165.49999999999997
30
0
11
5.0003980766287324
21
-168.49999999999997
31
0
0
LWPOLYLINE
5
143
100
AcDbEntity
8
0
100
AcDbPolyline
90
4
70
1
43
0.0
10
-94.999601923371273
20
-165.49999999999997
10
-84.999601923371273
20
-165.49999999999997
10
-84.999601923371273
20
-168.49999999999997
10
-94.999601923371273
20
-168.49999999999997
0
LWPOLYLINE
5
144
100
AcDbEntity
8
0
100
AcDbPolyline
90
4
70
1
43
0.0
10
-64.999601923371273
20
-165.49999999999997
10
-54.999601923371266
20
-165.49999999999997
10
-54.999601923371266
20
-168.49999999999997
10
-64.999601923371273
20
-168.49999999999997
0
LWPOLYLINE
5
145
100
AcDbEntity
8
0
100
AcDbPolyline
90
4
70
1
43
0.0
10
-34.999601923371266
20
-165.49999999999997
10
-24.999601923371269
20
-165.49999999999997
10
-24.999601923371269
20
-168.49999999999997
10
-34.999601923371266
20
-168.49999999999997
0
LWPOLYLINE
5
146
100
AcDbEntity
8
0
100
AcDbPolyline
90
4
70
1
43
0.0
10
25.000398076628731
20
-165.49999999999997
10
35.000398076628734
20
-165.49999999999997
10
35.000398076628734
20
-168.49999999999997
10
25.000398076628731
20
-168.49999999999997
0
LWPOLYLINE
5
147
100
AcDbEntity
8
0
100
AcDbPolyline
90
4
70
1
43
0.0
10
55.000398076628727
20
-165.49999999999997
10
65.000398076628741
20
-165.49999999999997
10
65.000398076628741
20
-168.49999999999997
10
55.000398076628727
20
-168.49999999999997
0
LWPOLYLINE
5
148
100
AcDbEntity
8
0
100
AcDbPolyline
90
4
70
1
43
0.0
10
85.000398076628727
20
-165.49999999999997
10
95.000398076628727
20
-165.49999999999997
10
95.000398076628727
20
-168.49999999999997
10
85.000398076628727
20
-168.49999999999997
0
LWPOLYLINE
5
149
100
AcDbEntity
8
0
100
AcDbPolyline
90
4
70
1
43
0.0
10
101.14999999999998
20
64.999999999999972
10
101.14999999999998
20
54.999999999999964
10
104.14999999999999
20
54.999999999999964
10
104.14999999999999
20
64.999999999999972
0
LWPOLYLINE
5
150
100
AcDbEntity
8
0
100
AcDbPolyline
90
4
70
1
43
0.0
10
101.14999999999998
20
94.999999999999972
10
101.14999999999998
20
84.999999999999986
10
104.14999999999999
20
84.999999999999986
10
104.14999999999999
20
94.999999999999972
0
LWPOLYLINE
5
151
100
AcDbEntity
8
0
100
AcDbPolyline
90
4
70
1
43
0.0
10
101.14999999999998
20
124.99999999999997
10
101.14999999999998
20
114.99999999999999
10
104.14999999999999
20
114.99999999999999
10
104.14999999999999
20
124.99999999999997
0
LWPOLYLINE
5
152
100
AcDbEntity
8
0
100
AcDbPolyline
90
4
70
1
43
0.0
10
101.14999999999998
20
154.99999999999997
10
101.14999999999998
20
144.99999999999997
10
104.14999999999999
20
144.99999999999997
10
104.14999999999999
20
154.99999999999997
0
LWPOLYLINE
5
153
100
AcDbEntity
8
0
100
AcDbPolyline
90
4
70
1
43
0.0
10
-107.15000000000001
20
238.49999999999994
10
101.14999999999998
20
238.49999999999994
10
101.14999999999998
20
221.50000000000003
10
-107.15000000000001
20
221.49999999999994
0
LINE
5
154
100
AcDbEntity
8
0
100
AcDbLine
10
5
20
218.50000000000006
30
0
11
-5
21
218.50000000000006
31
0
0
LINE
5
155
100
AcDbEntity
8
0
100
AcDbLine
10
-5
20
218.50000000000006
30
0
11
-5
21
221.50000000000003
31
0
0
LINE
5
156
100
AcDbEntity
8
0
100
AcDbLine
10
-5
20
221.50000000000003
30
0
11
5
21
221.50000000000003
31
0
0
LINE
5
157
100
AcDbEntity
8
0
100
AcDbLine
10
5
20
221.50000000000003
30
0
11
5
21
218.50000000000006
31
0
0
CIRCLE
5
158
100
AcDbEntity
8
0
100
AcDbCircle
10
-107.15000000000001
20
229.99999999999994
30
0
40
8.4999999999999964
0
LINE
5
159
100
AcDbEntity
8
0
100
AcDbLine
10
104.14999999999999
20
235
30
0
11
101.14999999999998
21
235
31
0
0
LINE
5
160
100
AcDbEntity
8
0
100
AcDbLine
10
101.14999999999998
20
235
30
0
11
101.14999999999998
21
225
31
0
0
LINE
5
161
100
AcDbEntity
8
0
100
AcDbLine
10
101.14999999999998
20
225
30
0
11
104.14999999999999
21
225
31
0
0
LINE
5
162
100
AcDbEntity
8
0
100
AcDbLine
10
104.14999999999999
20
225
30
0
11
104.14999999999999
21
235
31
0
0
LINE
5
163
100
AcDbEntity
8
0
100
AcDbLine
10
104.14999999999999
20
235
30
0
11
101.14999999999998
21
225
31
0
0
LINE
5
164
100
AcDbEntity
8
0
100
AcDbLine
10
101.14999999999998
20
235
30
0
11
104.14999999999999
21
225
31
0
0
LINE
5
165
100
AcDbEntity
8
0
100
AcDbLine
10
141.48970843369773
20
-170
30
0
11
127.48970843369773
21
-170
31
0
0
LINE
5
166
100
AcDbEntity
8
0
100
AcDbLine
10
127.48970843369773
20
-170
30
0
11
127.48970843369773
21
170
31
0
0
LINE
5
167
100
AcDbEntity
8
0
100
AcDbLine
10
127.48970843369773
20
170
30
0
11
141.48970843369773
21
170
31
0
0
LINE
5
168
100
AcDbEntity
8
0
100
AcDbLine
10
141.48970843369773
20
170
30
0
11
141.48970843369773
21
-170
31
0
0
LINE
5
169
100
AcDbEntity
8
0
100
AcDbLine
10
141.48970843369773
20
-170
30
0
11
127.48970843369773
21
170
31
0
0
LINE
5
170
100
AcDbEntity
8
0
100
AcDbLine
10
127.48970843369773
20
-170
30
0
11
141.48970843369773
21
170
31
0
0
LINE
5
171
100
AcDbEntity
8
0
100
AcDbLine
10
124.48970843369771
20
-4.9999999999997256
30
0
11
127.48970843369773
21
-4.9999999999997256
31
0
0
LINE
5
172
100
AcDbEntity
8
0
100
AcDbLine
10
127.48970843369773
20
-4.9999999999997256
30
0
11
127.48970843369773
21
5.0000000000002753
31
0
0
LINE
5
173
100
AcDbEntity
8
0
100
AcDbLine
10
127.48970843369773
20
5.0000000000002753
30
0
11
124.48970843369771
21
5.0000000000002753
31
0
0
LINE
5
174
100
AcDbEntity
8
0
100
AcDbLine
10
124.48970843369771
20
5.0000000000002753
30
0
11
124.48970843369771
21
-4.9999999999997256
31
0
0
LINE
5
175
100
AcDbEntity
8
0
100
AcDbLine
10
124.48970843369771
20
-4.9999999999997256
30
0
11
127.48970843369773
21
5.0000000000002753
31
0
0
LINE
5
176
100
AcDbEntity
8
0
100
AcDbLine
10
127.48970843369773
20
-4.9999999999997256
30
0
11
124.48970843369771
21
5.0000000000002753
31
0
0
LINE
5
177
100
AcDbEntity
8
0
100
AcDbLine
10
124.48970843369771
20
-154.99999999999974
30
0
11
127.48970843369773
21
-154.99999999999974
31
0
0
LINE
5
178
100
AcDbEntity
8
0
100
AcDbLine
10
124.48970843369771
20
-144.99999999999974
30
0
11
124.48970843369771
21
-154.99999999999974
31
0
0
LINE
5
179
100
AcDbEntity
8
0
100
AcDbLine
10
127.48970843369773
20
-144.99999999999974
30
0
11
124.48970843369771
21
-144.99999999999974
31
0
0
LINE
5
180
100
AcDbEntity
8
0
100
AcDbLine
10
124.48970843369771
20
-124.99999999999973
30
0
11
127.48970843369773
21
-124.99999999999973
31
0
0
LINE
5
181
100
AcDbEntity
8
0
100
AcDbLine
10
124.48970843369771
20
-114.99999999999973
30
0
11
124.48970843369771
21
-124.99999999999973
31
0
0
LINE
5
182
100
AcDbEntity
8
0
100
AcDbLine
10
127.48970843369773
20
-114.99999999999973
30
0
11
124.48970843369771
21
-114.99999999999973
31
0
0
LINE
5
183
100
AcDbEntity
8
0
100
AcDbLine
10
124.48970843369771
20
-94.99999999999973
30
0
11
127.48970843369773
21
-94.99999999999973
31
0
0
LINE
5
184
100
AcDbEntity
8
0
100
AcDbLine
10
124.48970843369771
20
-84.99999999999973
30
0
11
124.48970843369771
21
-94.99999999999973
31
0
0
LINE
5
185
100
AcDbEntity
8
0
100
AcDbLine
10
127.48970843369773
20
-84.99999999999973
30
0
11
124.48970843369771
21
-84.99999999999973
31
0
0
LINE
5
186
100
AcDbEntity
8
0
100
AcDbLine
10
124.48970843369771
20
-64.99999999999973
30
0
11
127.48970843369773
21
-64.99999999999973
31
0
0
LINE
5
187
100
AcDbEntity
8
0
100
AcDbLine
10
124.48970843369771
20
-54.999999999999723
30
0
11
124.48970843369771
21
-64.99999999999973
31
0
0
LINE
5
188
100
AcDbEntity
8
0
100
AcDbLine
10
127.48970843369773
20
-54.999999999999723
30
0
11
124.48970843369771
21
-54.999999999999723
31
0
0
LINE
5
189
100
AcDbEntity
8
0
100
AcDbLine
10
124.48970843369771
20
-34.999999999999723
30
0
11
127.48970843369773
21
-34.999999999999723
31
0
0
LINE
5
190
100
AcDbEntity
8
0
100
AcDbLine
10
124.48970843369771
20
-24.999999999999723
30
0
11
124.48970843369771
21
-34.999999999999723
31
0
0
LINE
5
191
100
AcDbEntity
8
0
100
AcDbLine
10
127.48970843369773
20
-24.999999999999723
30
0
11
124.48970843369771
21
-24.999999999999723
31
0
0
LINE
5
192
100
AcDbEntity
8
0
100
AcDbLine
10
124.48970843369771
20
25.000000000000277
30
0
11
127.48970843369773
21
25.000000000000277
31
0
0
LINE
5
193
100
AcDbEntity
8
0
100
AcDbLine
10
124.48970843369771
20
35.000000000000277
30
0
11
124.48970843369771
21
25.000000000000277
31
0
0
LINE
5
194
100
AcDbEntity
8
0
100
AcDbLine
10
127.48970843369773
20
35.000000000000277
30
0
11
124.48970843369771
21
35.000000000000277
31
0
0
LINE
5
195
100
AcDbEntity
8
0
100
AcDbLine
10
124.48970843369771
20
55.000000000000277
30
0
11
127.48970843369773
21
55.000000000000277
31
0
0
LINE
5
196
100
AcDbEntity
8
0
100
AcDbLine
10
124.48970843369771
20
65.00000000000027
30
0
11
124.48970843369771
21
55.000000000000277
31
0
0
LINE
5
197
100
AcDbEntity
8
0
100
AcDbLine
10
127.48970843369773
20
65.00000000000027
30
0
11
124.48970843369771
21
65.00000000000027
31
0
0
LINE
5
198
100
AcDbEntity
8
0
100
AcDbLine
10
124.48970843369771
20
85.00000000000027
30
0
11
127.48970843369773
21
85.00000000000027
31
0
0
LINE
5
199
100
AcDbEntity
8
0
100
AcDbLine
10
124.48970843369771
20
95.00000000000027
30
0
11
124.48970843369771
21
85.00000000000027
31
0
0
LINE
5
200
100
AcDbEntity
8
0
100
AcDbLine
10
127.48970843369773
20
95.00000000000027
30
0
11
124.48970843369771
21
95.00000000000027
31
0
0
LINE
5
201
100
AcDbEntity
8
0
100
AcDbLine
10
124.48970843369771
20
115.00000000000027
30
0
11
127.48970843369773
21
115.00000000000027
31
0
0
LINE
5
202
100
AcDbEntity
8
0
100
AcDbLine
10
124.48970843369771
20
125.00000000000027
30
0
11
124.48970843369771
21
115.00000000000027
31
0
0
LINE
5
203
100
AcDbEntity
8
0
100
AcDbLine
10
127.48970843369773
20
125.00000000000027
30
0
11
124.48970843369771
21
125.00000000000027
31
0
0
LINE
5
204
100
AcDbEntity
8
0
100
AcDbLine
10
124.48970843369771
20
145.00000000000026
30
0
11
127.48970843369773
21
145.00000000000026
31
0
0
LINE
5
205
100
AcDbEntity
8
0
100
AcDbLine
10
124.48970843369771
20
155.00000000000026
30
0
11
124.48970843369771
21
145.00000000000026
31
0
0
LINE
5
206
100
AcDbEntity
8
0
100
AcDbLine
10
127.48970843369773
20
155.00000000000026
30
0
11
124.48970843369771
21
155.00000000000026
31
0
0
LWPOLYLINE
5
207
100
AcDbEntity
8
0
100
AcDbPolyline
90
4
70
1
43
0.0
10
140.00000000000003
20
167
10
130.00000000000003
20
167
10
130.00000000000003
20
164
10
140.00000000000003
20
164
0
LINE
5
208
100
AcDbEntity
8
0
100
AcDbLine
10
107.15000000000001
20
0
30
0
11
110.00000163912773
21
0
31
0
0
LINE
5
209
100
AcDbEntity
8
0
100
AcDbLine
10
134.48970843369773
20
4.7822856785728618e-13
30
0
11
118.00000175833702
21
0
31
0
0
LINE
5
210
100
AcDbEntity
8
0
100
AcDbLine
10
101.14999999999998
20
221.50000000000003
30
0
11
101.14999999999998
21
170
31
0
0
LINE
5
211
100
AcDbEntity
8
0
100
AcDbLine
10
107.15000000000001
20
170
30
0
11
107.15000000000001
21
251.90853110934472
31
0
0
LINE
5
212
100
AcDbEntity
8
0
100
AcDbLine
10
101.14999999999998
20
238.49999999999994
30
0
11
110
21
238.49999999999994
31
0
0
LINE
5
213
100
AcDbEntity
8
0
100
AcDbLine
10
101.14999999999998
20
221.50000000000003
30
0
11
110
21
221.50000000000003
31
0
0
LINE
5
214
100
AcDbEntity
8
0
100
AcDbLine
10
-5
20
218.50000000000006
30
0
11
5
21
221.50000000000003
31
0
0
LINE
5
215
100
AcDbEntity
8
0
100
AcDbLine
10
5
20
218.50000000000006
30
0
11
-5
21
221.50000000000003
31
0
0
LINE
5
216
100
AcDbEntity
8
0
100
AcDbLine
10
-95
20
218.50000000000006
30
0
11
-95
21
221.50000000000003
31
0
0
LINE
5
217
100
AcDbEntity
8
0
100
AcDbLine
10
-85
20
218.50000000000006
30
0
11
-95
21
218.50000000000006
31
0
0
LINE
5
218
100
AcDbEntity
8
0
100
AcDbLine
10
-85
20
221.50000000000003
30
0
11
-85
21
218.50000000000006
31
0
0
LINE
5
219
100
AcDbEntity
8
0
100
AcDbLine
10
-65
20
218.50000000000006
30
0
11
-65
21
221.50000000000003
31
0
0
LINE
5
220
100
AcDbEntity
8
0
100
AcDbLine
10
-55
20
218.50000000000006
30
0
11
-65
21
218.50000000000006
31
0
0
LINE
5
221
100
AcDbEntity
8
0
100
AcDbLine
10
-55
20
221.50000000000003
30
0
11
-55
21
218.50000000000006
31
0
0
LINE
5
222
100
AcDbEntity
8
0
100
AcDbLine
10
-35
20
218.50000000000006
30
0
11
-35
21
221.50000000000003
31
0
0
LINE
5
223
100
AcDbEntity
8
0
100
AcDbLine
10
-25
20
218.50000000000006
30
0
11
-35
21
218.50000000000006
31
0
0
LINE
5
224
100
AcDbEntity
8
0
100
AcDbLine
10
-25
20
221.50000000000003
30
0
11
-25
21
218.50000000000006
31
0
0
LINE
5
225
100
AcDbEntity
8
0
100
AcDbLine
10
25
20
218.50000000000006
30
0
11
25
21
221.50000000000003
31
0
0
LINE
5
226
100
AcDbEntity
8
0
100
AcDbLine
10
35
20
218.50000000000006
30
0
11
25
21
218.50000000000006
31
0
0
LINE
5
227
100
AcDbEntity
8
0
100
AcDbLine
10
35
20
221.50000000000003
30
0
11
35
21
218.50000000000006
31
0
0
LINE
5
228
100
AcDbEntity
8
0
100
AcDbLine
10
55
20
218.50000000000006
30
0
11
55
21
221.50000000000003
31
0
0
LINE
5
229
100
AcDbEntity
8
0
100
AcDbLine
10
65
20
218.50000000000006
30
0
11
55
21
218.50000000000006
31
0
0
LINE
5
230
100
AcDbEntity
8
0
100
AcDbLine
10
65
20
221.50000000000003
30
0
11
65
21
218.50000000000006
31
0
0
LINE
5
231
100
AcDbEntity
8
0
100
AcDbLine
10
85
20
218.50000000000006
30
0
11
85
21
221.50000000000003
31
0
0
LINE
5
232
100
AcDbEntity
8
0
100
AcDbLine
10
95
20
218.50000000000006
30
0
11
85
21
218.50000000000006
31
0
0
LINE
5
233
100
AcDbEntity
8
0
100
AcDbLine
10
95
20
221.50000000000003
30
0
11
95
21
218.50000000000006
31
0
0
LINE
5
234
100
AcDbEntity
8
0
100
AcDbLine
10
-107.15000000000001
20
170
30
0
11
-107.15000000000001
21
229.99999999999994
31
0
0
LINE
5
235
100
AcDbEntity
8
0
100
AcDbLine
10
4.1078251911130792e-14
20
165.5
30
0
11
0
21
167.68871533250865
31
0
0
LINE
5
236
100
AcDbEntity
8
0
100
AcDbLine
10
0
20
0
30
0
11
-1.4623472759979815e-12
21
331
31
0
0
LINE
5
237
100
AcDbEntity
8
0
100
AcDbLine
10
141.48970843369773
20
5.0000000000007994
30
0
11
144.48970843369773
21
5.0000000000007994
31
0
0
LINE
5
238
100
AcDbEntity
8
0
100
AcDbLine
10
144.48970843369773
20
5.0000000000007994
30
0
11
144.48970843369773
21
-4.9999999999992006
31
0
0
LINE
5
239
100
AcDbEntity
8
0
100
AcDbLine
10
144.48970843369773
20
-4.9999999999992006
30
0
11
141.48970843369773
21
-4.9999999999992006
31
0
0
LINE
5
240
100
AcDbEntity
8
0
100
AcDbLine
10
141.48970843369773
20
-4.9999999999992006
30
0
11
141.48970843369773
21
5.0000000000007994
31
0
0
LINE
5
241
100
AcDbEntity
8
0
100
AcDbLine
10
141.48970843369773
20
5.0000000000007994
30
0
11
144.48970843369773
21
-4.9999999999992006
31
0
0
LINE
5
242
100
AcDbEntity
8
0
100
AcDbLine
10
141.48970843369773
20
-4.9999999999992006
30
0
11
144.48970843369773
21
5.0000000000007994
31
0
0
LINE
5
243
100
AcDbEntity
8
0
100
AcDbLine
10
142.98970843369773
20
7.9936057773011271e-13
30
0
11
145.55456720046439
21
7.9936057773011271e-13
31
0
0
LINE
5
244
100
AcDbEntity
8
0
100
AcDbLine
10
141.48970843369773
20
-24.999999999999201
30
0
11
144.48970843369773
21
-24.999999999999201
31
0
0
LINE
5
245
100
AcDbEntity
8
0
100
AcDbLine
10
144.48970843369773
20
-24.999999999999201
30
0
11
144.48970843369773
21
-34.999999999999204
31
0
0
LINE
5
246
100
AcDbEntity
8
0
100
AcDbLine
10
144.48970843369773
20
-34.999999999999204
30
0
11
141.48970843369773
21
-34.999999999999204
31
0
0
LINE
5
247
100
AcDbEntity
8
0
100
AcDbLine
10
141.48970843369773
20
35.000000000000796
30
0
11
144.48970843369773
21
35.000000000000796
31
0
0
LINE
5
248
100
AcDbEntity
8
0
100
AcDbLine
10
144.48970843369773
20
35.000000000000796
30
0
11
144.48970843369773
21
25.000000000000799
31
0
0
LINE
5
249
100
AcDbEntity
8
0
100
AcDbLine
10
144.48970843369773
20
25.000000000000799
30
0
11
141.48970843369773
21
25.000000000000799
31
0
0
LINE
5
250
100
AcDbEntity
8
0
100
AcDbLine
10
-349.85000000000008
20
5.0000000000000044
30
0
11
-346.85000000000008
21
5.0000000000000044
31
0
0
LINE
5
251
100
AcDbEntity
8
0
100
AcDbLine
10
-346.85000000000008
20
5.0000000000000044
30
0
11
-346.85000000000008
21
-4.9999999999999947
31
0
0
LINE
5
252
100
AcDbEntity
8
0
100
AcDbLine
10
-346.85000000000008
20
-4.9999999999999947
30
0
11
-349.85000000000008
21
-4.9999999999999947
31
0
0
LINE
5
253
100
AcDbEntity
8
0
100
AcDbLine
10
-349.85000000000008
20
-4.9999999999999947
30
0
11
-349.85000000000008
21
5.0000000000000044
31
0
0
LINE
5
254
100
AcDbEntity
8
0
100
AcDbLine
10
-349.85000000000008
20
5.0000000000000044
30
0
11
-346.85000000000008
21
-4.9999999999999947
31
0
0
LINE
5
255
100
AcDbEntity
8
0
100
AcDbLine
10
-349.85000000000008
20
-4.9999999999999947
30
0
11
-346.85000000000008
21
5.0000000000000044
31
0
0
LINE
5
256
100
AcDbEntity
8
0
100
AcDbLine
10
-348.35000000000008
20
4.9960036108132044e-15
30
0
11
-351.50000523775816
21
4.9960036108132044e-15
31
0
0
LINE
5
257
100
AcDbEntity
8
0
100
AcDbLine
10
-245.70000000000005
20
-2.5462828782905272e-14
30
0
11
-334.05810183525483
21
0
31
0
0
LWPOLYLINE
5
258
100
AcDbEntity
8
0
100
AcDbPolyline
90
4
70
1
43
0.0
10
-346.85000000000008
20
-24.999999999999996
10
-349.85000000000008
20
-24.999999999999996
10
-349.85000000000008
20
-34.999999999999993
10
-346.85000000000008
20
-34.999999999999993
0
LWPOLYLINE
5
259
100
AcDbEntity
8
0
100
AcDbPolyline
90
4
70
1
43
0.0
10
-346.85000000000008
20
35.000000000000007
10
-349.85000000000008
20
35.000000000000007
10
-349.85000000000008
20
25.000000000000004
10
-346.85000000000008
20
25.000000000000004
0
ENDSEC
0
SECTION
2
OBJECTS
0
DICTIONARY
5
C
100
AcDbDictionary
3
ACAD_GROUP
350
D
3
ACAD_MLINESTYLE
350
17
0
DICTIONARY
5
D
100
AcDbDictionary
0
DICTIONARY
5
1A
330
C
100
AcDbDictionary
0
DICTIONARY
5
17
100
AcDbDictionary
0
ENDSEC
0
EOF
